Collector Man

There it was.

The big square box from Touch And Go.

The boxed set had arrived.

Left on his driveway by the lazy postman.

The rain waited until he could bring it inside.

But no longer.

Inside, he cut the paper tape.

With scissors from the drawer.

With scissors from the junk drawer.

And inside the box.

Was the foam. The dry, brittle foam.

So white. So squeaky.

So arrangeable.

20140415-092255.jpg

Signed. Remastered. With DVD. Three LPs. Two CDs.

104 page photo book.

Replica 1989 tour shirt made from the original silk screen.

Collector bait.

Collected. Hooked.

I have you.

I have you.

I Have You!

Slint – Nosferatu Man (Studio Version)

Somn

Audio clip: Adobe Flash Player (version 9 or above) is required to play this audio clip. Download the latest version here. You also need to have JavaScript enabled in your browser.


Sleepy adventures in A harmonic minor.

|-----------------------------
|-----------------------------
|------------------------1---2
|------------0---2---3--------
|0---2---3--------------------
|-----------------------------
  Caug       Bb5           F         E          Am
|----------------------------------------------------------
|----------------------------------------------------------
|-------------------------------10---------9---------------
|-----7----------9-10-9------10---------9-----------7---7--
|---7---7------8-----------8---------7------------7---7----
|-8----------7----------------------------------5----------

Felis Flatulans

Yes, Lenny the black and white domestic shorthair stray was rescued from a Rochester park in February, nursed back to health at Scottsville, adopted out last month, and within two days, returned to the shelter because “he farts all the time,” according to the intake papers filled out by his two-day owner.